Vedi figliolo, è la tua testa che fa il bar. Non il contrario. (N.D.)
CATEGORIE:
L'ukulele maligno: tema di Halloween, il film

L'ukulele maligno: tema di Halloween, il film

CATEGORIA: UKULELE
Inserito in DATA: 18/11/2017
Vai ai COMMENTI
Continua la raccolta di musiche malvagie atte a dimostrare che anche la piccola pulce hawaiana può portare non solo il sorriso, ma anche il gelo, il tremore e la follia della paura nelle nostre vite.
Oggi vi presenterò il tema del terribile film Halloween.
La tablatura l'avevo già tirata giù ad orecchio, poi ne avevo trovata una per doppio Ukulele e ho messo insieme le due per avere non solo il motivetto principale, ma anche le note di accompagnamento lunghe che si diramano da battuta a battuta.
Ammetto: non viene proprio benissimo.
Ma non è neanche male.
Ed è quanto basta per portare il gelo dell'orrore.
Il tema è in tempo 5/4

VERSIONE 1:
A|-5-----5-----5---6---|-5-----5-----5---6---|
E|---------------------|---------------------|
C|---7-7---7-7---7---7-|---7-7---7-7---7---7-|
G|---------------------|---------------------|

A|-5-----5-----5---6---|-5-----5-----5---6---|-4-----4-----4---5---|-4-----4-----4---5---|
E|---------------------|-6-------------------|-7-------------------|-7-------------------|
C|-7-7-7---7-7---7---7-|-7-7-7---7-7---7---7-|-6-6-6---6-6---6---6-|-6-6-6---6-6---6---6-|
G|-0-------------------|---------------------|---------------------|---------------------| x2

A|-3-----3-----3---4---|-3-----3-----3---4---|-2-----2-----2---3---|-2-----2-----2---3---|
E|---------------------|-4-------------------|-5-------------------|-5-------------------|
C|-5-5-5---5-5---5---5-|-5-5-5---5-5---5---5-|-4-4-4---4-4---4---4-|-4-4-4---4-4---4---4-|
G|---------------------|---------------------|---------------------|---------------------| x2

A|---------------------|---------------------|-3-------------------|-7-------------------|
E|-3-----3-----3---4---|-3-----3-----3---4---|-3-----3-----3---4---|-8-----3-----3---4---|
C|-0-0-0---0-0---0---0-|-0-0-0---0-0---0---0-|-0-0-0---0-0---0---0-|-0-0-0---0-0---0---0-|
G|---------------------|-0-------------------|-0-------------------|-0-------------------| x2

Ed infine, ovviamente, ecco qui la mia registrazione audio.
Il brano è suonato col mio nuovissimo e magnificissimo Ukulele Mahimahi 77G Soprano Long Neck!
Il finale è diverso, lo so, ma mi ero incasinato col tempo come si può notare, e allora ho mandato in malora tutto improvvisando sull'accordo che è, sostanzialmente, un do. Quindi oltre a concludere con 0-0-3/4-3 0-0-3/4-7 ho chiuso il cerchio 0-0-3/4-10 quest'ultimo solo per mani grandi col 3/4 suonato solo con l'indice.

VERSIONE 2:
C'è anche questa seconda versione, però a me non fa proprio impazzire. Vi metto solo il tema principale, il resto potete capire da soli come farlo perchè prosegue abbassandosi progressivamente di tonalità come la precedente. E' la stessa che potete vedere in questo video di un tizio strano.
A|-9-----9-----9---10---9-----9-----9---10---
E|---7-7---7-7---7----7---7-7---7-7---7----7-
C|-------------------------------------------
G|-------------------------------------------

A|-9-----9-----9---10---|-9-----9-----9---10---|-8-----8-----8---9---
E|---7-7---7-7---7----7-|---7-7---7-7---7----7-|---6-6---6-6---6---6-
C|-6--------------------|----------------------|---------------------
G|-0--------------------|-7--------------------|-6-------------------



MATERIALE A CORREDO

  • UkeBostro - Halloween Theme REV.ogg
  • UkeBostro - Halloween Theme.ogg


  • Inserisci un commento

    Nome: Email: 2+8=?

    Parental Advisory Bostro.Net
    Il Bostro-X
    © Federico "Bostro" Bortolotti 2011

    Questo sito l'ho realizzato io e quindi è proprietà intellettuale mia!

    Qualsiasi utilizzo non autorizzato dei contenuti pubblicati dal dominio www.bostro.net va segnalato al Bostro e bisogna richiedere la sua autorizzazione.

    » www.bostro.net » info[at]bostro.net

    » Privacy - Feed RSS
    Original Friulano
    ORIGINAL FRIULANO!
    KTM 990 Adventure Bostro.Net