CATEGORIE:
Embryo dei Black Sabbath per Ukulele con tablatura

Embryo dei Black Sabbath per Ukulele con tablatura

Categoria: UKULELE

Inserito in DATA: 01/03/2019
Vai ai COMMENTI
Uno dei tanti gioielli di Tony Iommi "The Riff Lord", Embryo è un brano presente nell'album Master of Reality dei Black Sabbath. Qui lo suono su un ukulele Mahimahi MS-77G Soprano Long Neck.
Di certo, se non conoscete questo brano e quindi le righe sopra sono state per voi una scoperta, c'è da capire che cazzo ci fare nel mio sito.

La tablature è piuttosto semplice, si parla ovviamente di ukulele con accordatura standard perchè il "low g" è una stronzata.

A|-------------------|------------------------
E|---0---2---3---2---|---0--2--3--2--0--0-----
C|---4---4---4---4---|---4--4--4--4--4--4-----
G|-------------------|------------------------

A|-------------------|------0-----------------
E|---0---2---3---2---|---3-----3--2--0--0-----
C|-------------------|---4--------2--4--4-----
G|---0---2---4---2---|------------------------

A|-------------------|------------------------
E|---3---2---0-------|---0--2--3--2--0--0-----
C|---------------2---|---4--4--4--4--4--4-----
G|---4---2---0-------|------------------------

A|-------------------|------------------------
E|---0---2---3---2---|---0--2--3--2~3~2--0--0-
C|-2-4---4---4---4---|---4--4--4--4------4--4-
G|-------------------|------------------------

A|---5/7--5---2---5--|---0--2-----------------
E|---0----0---0---0--|---0-----3--2---0---0---
C|-------------------|---------4------4---4---
G|-------------------|------------------------

A|-------------------|------------------------
E|---0---2---3---2---|---0--2--3--2--0--0-----
C|-2-4---4---4---4---|---4--4--4--4--4--4-----
G|-------------------|------------------------

A|----------------------|---------------------
E|---3---2~3~2--0-------|---0--2--3--2--0--0--
C|---2---2------2---2---|---4--4--4--4--4--4--
G|----------------------|---------------------

A|---2--0/2/0--------|---------------------7--
E|-------------3--0--|---0--2--3--2------0----
C|---2--2------2--2--|---4--4--4--4----4------
G|-------------------|---------------0--------




Inserisci un commento

Il Bostro-X
© Federico "Bostro" Bortolotti www.bostro.net
Questo sito l'ho realizzato io e quindi è proprietà intellettuale mia, e non ne concedo alcuna autorizzazione.
» contatti » privacy policy


Licenza Creative Commons
www.Bostro.net di Federico Bortolotti è distribuito con Licenza Creative Commons Attribuzione - Non commerciale - Non opere derivate 4.0 Internazionale.
Web Bostro.Net